Gitaar.net

 
Wachtwoord kwijt?    Nog geen lid?
Forum: Bassisten
berichtNummers op gehoor meespelen.. help!
Gepost door: Tycho
Datum: 28/04/2010 12:16

Hee jongens,

Ik heb nou al een tijdje een basgitaar (sinds augustus), en speel er zo 1 in de 2 dagen op. Mede door gemakzucht en niet al te veel vertrouwen in m'n eigen gehoor heb ik voornamelijk van tablatuur gespeeld. Handig hiervan is echt dat je het 'in een keer goed speelt' (zie: de goede noten speelt).

Echter probeer ik nu een (in mijn ogen vrij simpel) nummer mee te spelen waarvan ik geen tabs kan vinden, en het lukt me echt niet. Raak hier vrij gefrustreerd van (maar die gefrustreerde smiley vind ik dan weer iets te overdreven).
Dit is het nummer (Details van Wouter Hamel):




Dus door naar mijn vraag, die vrij algemeen is en ook toegespitst op het nummer dat ik probeer:
Hoe spelen jullie mee met een nummer op gehoor? Hoe vogelen jullie uit welke noot wat is? En hoe kan ik dit toepassen op Details?

Ik kan namelijk écht moeilijk horen of ik er nou naast zit of niet droevig.

Om maar even zonder schaamte op te schrijven "hoe ver ik gekomen ben":
G|----------------------------------------------------------------------
D|----------------------------------------------------------------------
A|-3-3--8-8--5-5--8-8--3-3--8-8--2-2--2-2--3-3--8-8--5-5--8-8-----------
E|----------------------------------------------------------------------
G|----------------------------------------------------------------------
D|----------------------------------------------------------------------
A|-3-3--6-6--5-5--4-4--3-3--8-8--5-5--9-9--5-5--7-7--6-6--6-6-----------
E|----------------------------------------------------------------------
G|----------------------------------------------------
D|----------------------------------------------------
A|-3-3--8-8--5-5--8-8--3-3--8-8--2-2--5-5-------------
E|----------------------------------------------------
Ben verre van tevreden en zeker ervan dat het goed is omdat ik gewoon niet echt een logica zie (behalve die terugkomende C), en ik niet goed hoor wanneer iets goed is of niet (of hoger of lager).


AAahh, hopelijk kan iemand me hiermee helpen droevig



1 keer gewijzigd. Laatste wijziging: 28/04/2010 12:17 door Tycho.
berichtRe: Nummers op gehoor meespelen.. help!
Gepost door: ruben
Datum: 28/04/2010 12:24

Je kan karaoke sound tools torrenten (of kopen natuurlijk). die haalt de zang bijna weg zodat je de noten beter kan horen.
Je kan kijken of je met een programmaatje de bas hoger kan zetten -> de bas speelt meestal de grondtoon van het akkoord en dan hoef je alleen nog te luisteren of je akkoord mineur of majeur is.
Een beetje een idee van muziektheorie en dan met name toonladders en sleutels is handig. Oefening baart kunst! Succes
berichtRe: Nummers op gehoor meespelen.. help!
Gepost door: Enzo
Datum: 28/04/2010 14:18

Dit lijkt me niet zo moeilijk om zelf uit te zoeken, heb alleen geen bas...
berichtRe: Nummers op gehoor meespelen.. help!
Gepost door: Tycho
Datum: 28/04/2010 14:47

Ik ben blij dat het voor jou niet moeilijk lijkt. Helpt mij alleen jammer genoeg niet zo veel knipoog.
Wantijpop 2013 berichtRe: Nummers op gehoor meespelen.. help!
Gepost door: Jeroen
Datum: 29/04/2010 21:19

Ik hoor (in dat eerste refrein):

G|--------------------------------------------
D|------3-3-------5-5-------------------5-----
A|-3-3-------5-5-------3-3-------1-1--2---5---
E|--------------------------1-1------------3--

G|--------------------------------------------
D|------3-3-------5-5----------------------5--
A|-3-3-------5-5-------3-3--6-6--5-5--4-4-----
E|--------------------------------------------

G|--------------------------------------------
D|------3-3-------5-5-------------------------
A|-3-3-------5-5-------6-6--------------5-2---
E|--------------------------4-4--3-3--3-------

En verder wat variaties daarop en herhalingen daarvan volgens mij. Heb 'm niet volledig geluisterd en niet echt de tijd om 'm helemaal uit te zoeken, maar 't is een beginnetje blij





Eve's Fall - female fronted metal



2 keer gewijzigd. Laatste wijziging: 29/04/2010 21:23 door Jeroen.
berichtRe: Nummers op gehoor meespelen.. help!
Gepost door: Anonieme bezoeker
Datum: 29/04/2010 23:40

Ik kon dat pas na 1,5 jaar een beetje. En ik speelde best wel vaak...
berichtRe: Nummers op gehoor meespelen.. help!
Gepost door: Tycho
Datum: 30/04/2010 09:21

Thanks Jeroen & Ruben!

Ik ga gewoon blijven proberen om te spelen op gehoor (al is het zoooo verleidelijk om tabs erbij te pakken als ze er zijn).

@Ruben: [www.musicforte.com] besteld, en binnenkort afgesproken met een kennis/basleraar. Dat zou iig een stroomversnelling kunnen teweegbrengen dan blij
berichtRe: Nummers op gehoor meespelen.. help!
Gepost door: Anonieme bezoeker
Datum: 01/05/2010 12:15

ja oefening baart kunst.
En zolang je blijft spelen train je ook onbewust je gehoor, dus gewoon veel spelen en dan komt het vanzelf.
top

Bericht
Sorry, alleen geregistreerde gebruikers mogen berichten plaatsen in dit forum.

Klik hier om in te loggen